ISO-10303-21;
HEADER;
/* Generated by software containing ST-Developer
 * from STEP Tools, Inc. (www.steptools.com) 
 */

FILE_DESCRIPTION(
/* description */ (''),
/* implementation_level */ '2;1');

FILE_NAME(
/* name */ '',
/* time_stamp */ '2023-04-21T10:48:45+09:00',
/* author */ (''),
/* organization */ (''),
/* preprocessor_version */ 'ST-DEVELOPER v19.2',
/* originating_system */ 'Autodesk Translation Framework v12.4.0.73',
/* authorisation */ '');

FILE_SCHEMA (('AUTOMOTIVE_DESIGN { 1 0 10303 214 3 1 1 }'));
ENDSEC;

DATA;
#10=MECHANICAL_DESIGN_GEOMETRIC_PRESENTATION_REPRESENTATION('',(#13),#219);
#11=SHAPE_REPRESENTATION_RELATIONSHIP('SRR','None',#226,#12);
#12=ADVANCED_BREP_SHAPE_REPRESENTATION('',(#14),#218);
#13=STYLED_ITEM('',(#235),#14);
#14=MANIFOLD_SOLID_BREP('Body1',#111);
#15=FACE_BOUND('',#38,.T.);
#16=PLANE('',#132);
#17=PLANE('',#136);
#18=PLANE('',#143);
#19=LINE('',#198,#21);
#20=LINE('',#214,#22);
#21=VECTOR('',#160,26.);
#22=VECTOR('',#183,24.);
#23=CYLINDRICAL_SURFACE('',#130,26.);
#24=CYLINDRICAL_SURFACE('',#142,24.);
#25=FACE_OUTER_BOUND('',#33,.T.);
#26=FACE_OUTER_BOUND('',#34,.T.);
#27=FACE_OUTER_BOUND('',#35,.T.);
#28=FACE_OUTER_BOUND('',#36,.T.);
#29=FACE_OUTER_BOUND('',#37,.T.);
#30=FACE_OUTER_BOUND('',#39,.T.);
#31=FACE_OUTER_BOUND('',#40,.T.);
#32=FACE_OUTER_BOUND('',#41,.T.);
#33=EDGE_LOOP('',(#74,#75,#76,#77,#78));
#34=EDGE_LOOP('',(#79,#80,#81,#82,#83));
#35=EDGE_LOOP('',(#84));
#36=EDGE_LOOP('',(#85,#86,#87,#88));
#37=EDGE_LOOP('',(#89));
#38=EDGE_LOOP('',(#90));
#39=EDGE_LOOP('',(#91,#92,#93,#94));
#40=EDGE_LOOP('',(#95,#96,#97,#98));
#41=EDGE_LOOP('',(#99));
#42=CIRCLE('',#126,21.);
#43=CIRCLE('',#127,5.);
#44=CIRCLE('',#128,26.);
#45=CIRCLE('',#129,26.);
#46=CIRCLE('',#131,26.);
#47=CIRCLE('',#134,25.);
#48=CIRCLE('',#135,1.);
#49=CIRCLE('',#137,24.);
#50=CIRCLE('',#139,24.);
#51=CIRCLE('',#140,3.);
#52=CIRCLE('',#141,21.);
#53=VERTEX_POINT('',#188);
#54=VERTEX_POINT('',#190);
#55=VERTEX_POINT('',#192);
#56=VERTEX_POINT('',#196);
#57=VERTEX_POINT('',#201);
#58=VERTEX_POINT('',#205);
#59=VERTEX_POINT('',#208);
#60=VERTEX_POINT('',#210);
#61=EDGE_CURVE('',#53,#53,#42,.T.);
#62=EDGE_CURVE('',#53,#54,#43,.T.);
#63=EDGE_CURVE('',#54,#55,#44,.T.);
#64=EDGE_CURVE('',#55,#54,#45,.T.);
#65=EDGE_CURVE('',#56,#56,#46,.T.);
#66=EDGE_CURVE('',#56,#55,#19,.T.);
#67=EDGE_CURVE('',#57,#57,#47,.T.);
#68=EDGE_CURVE('',#57,#56,#48,.T.);
#69=EDGE_CURVE('',#58,#58,#49,.F.);
#70=EDGE_CURVE('',#59,#59,#50,.T.);
#71=EDGE_CURVE('',#59,#60,#51,.T.);
#72=EDGE_CURVE('',#60,#60,#52,.T.);
#73=EDGE_CURVE('',#59,#58,#20,.T.);
#74=ORIENTED_EDGE('',*,*,#61,.T.);
#75=ORIENTED_EDGE('',*,*,#62,.T.);
#76=ORIENTED_EDGE('',*,*,#63,.T.);
#77=ORIENTED_EDGE('',*,*,#64,.T.);
#78=ORIENTED_EDGE('',*,*,#62,.F.);
#79=ORIENTED_EDGE('',*,*,#65,.F.);
#80=ORIENTED_EDGE('',*,*,#66,.T.);
#81=ORIENTED_EDGE('',*,*,#63,.F.);
#82=ORIENTED_EDGE('',*,*,#64,.F.);
#83=ORIENTED_EDGE('',*,*,#66,.F.);
#84=ORIENTED_EDGE('',*,*,#61,.F.);
#85=ORIENTED_EDGE('',*,*,#67,.T.);
#86=ORIENTED_EDGE('',*,*,#68,.T.);
#87=ORIENTED_EDGE('',*,*,#65,.T.);
#88=ORIENTED_EDGE('',*,*,#68,.F.);
#89=ORIENTED_EDGE('',*,*,#67,.F.);
#90=ORIENTED_EDGE('',*,*,#69,.T.);
#91=ORIENTED_EDGE('',*,*,#70,.T.);
#92=ORIENTED_EDGE('',*,*,#71,.T.);
#93=ORIENTED_EDGE('',*,*,#72,.T.);
#94=ORIENTED_EDGE('',*,*,#71,.F.);
#95=ORIENTED_EDGE('',*,*,#70,.F.);
#96=ORIENTED_EDGE('',*,*,#73,.T.);
#97=ORIENTED_EDGE('',*,*,#69,.F.);
#98=ORIENTED_EDGE('',*,*,#73,.F.);
#99=ORIENTED_EDGE('',*,*,#72,.F.);
#100=TOROIDAL_SURFACE('',#125,21.,5.);
#101=TOROIDAL_SURFACE('',#133,25.,1.);
#102=TOROIDAL_SURFACE('',#138,21.,3.);
#103=ADVANCED_FACE('',(#25),#100,.T.);
#104=ADVANCED_FACE('',(#26),#23,.T.);
#105=ADVANCED_FACE('',(#27),#16,.F.);
#106=ADVANCED_FACE('',(#28),#101,.T.);
#107=ADVANCED_FACE('',(#29,#15),#17,.T.);
#108=ADVANCED_FACE('',(#30),#102,.F.);
#109=ADVANCED_FACE('',(#31),#24,.F.);
#110=ADVANCED_FACE('',(#32),#18,.T.);
#111=CLOSED_SHELL('',(#103,#104,#105,#106,#107,#108,#109,#110));
#112=DERIVED_UNIT_ELEMENT(#114,1.);
#113=DERIVED_UNIT_ELEMENT(#221,-3.);
#114=(
MASS_UNIT()
NAMED_UNIT(*)
SI_UNIT(.KILO.,.GRAM.)
);
#115=DERIVED_UNIT((#112,#113));
#116=MEASURE_REPRESENTATION_ITEM('density measure',
POSITIVE_RATIO_MEASURE(7850.),#115);
#117=PROPERTY_DEFINITION_REPRESENTATION(#122,#119);
#118=PROPERTY_DEFINITION_REPRESENTATION(#123,#120);
#119=REPRESENTATION('material name',(#121),#218);
#120=REPRESENTATION('density',(#116),#218);
#121=DESCRIPTIVE_REPRESENTATION_ITEM('Steel','Steel');
#122=PROPERTY_DEFINITION('material property','material name',#228);
#123=PROPERTY_DEFINITION('material property','density of part',#228);
#124=AXIS2_PLACEMENT_3D('',#186,#144,#145);
#125=AXIS2_PLACEMENT_3D('',#187,#146,#147);
#126=AXIS2_PLACEMENT_3D('',#189,#148,#149);
#127=AXIS2_PLACEMENT_3D('',#191,#150,#151);
#128=AXIS2_PLACEMENT_3D('',#193,#152,#153);
#129=AXIS2_PLACEMENT_3D('',#194,#154,#155);
#130=AXIS2_PLACEMENT_3D('',#195,#156,#157);
#131=AXIS2_PLACEMENT_3D('',#197,#158,#159);
#132=AXIS2_PLACEMENT_3D('',#199,#161,#162);
#133=AXIS2_PLACEMENT_3D('',#200,#163,#164);
#134=AXIS2_PLACEMENT_3D('',#202,#165,#166);
#135=AXIS2_PLACEMENT_3D('',#203,#167,#168);
#136=AXIS2_PLACEMENT_3D('',#204,#169,#170);
#137=AXIS2_PLACEMENT_3D('',#206,#171,#172);
#138=AXIS2_PLACEMENT_3D('',#207,#173,#174);
#139=AXIS2_PLACEMENT_3D('',#209,#175,#176);
#140=AXIS2_PLACEMENT_3D('',#211,#177,#178);
#141=AXIS2_PLACEMENT_3D('',#212,#179,#180);
#142=AXIS2_PLACEMENT_3D('',#213,#181,#182);
#143=AXIS2_PLACEMENT_3D('',#215,#184,#185);
#144=DIRECTION('axis',(0.,0.,1.));
#145=DIRECTION('refdir',(1.,0.,0.));
#146=DIRECTION('center_axis',(0.,0.,-1.));
#147=DIRECTION('ref_axis',(-1.,0.,0.));
#148=DIRECTION('center_axis',(0.,0.,1.));
#149=DIRECTION('ref_axis',(1.,0.,0.));
#150=DIRECTION('center_axis',(-1.22464679914735E-16,-1.,0.));
#151=DIRECTION('ref_axis',(1.,-1.22464679914735E-16,0.));
#152=DIRECTION('center_axis',(0.,0.,-1.));
#153=DIRECTION('ref_axis',(1.,0.,0.));
#154=DIRECTION('center_axis',(0.,0.,-1.));
#155=DIRECTION('ref_axis',(1.,0.,0.));
#156=DIRECTION('center_axis',(0.,0.,1.));
#157=DIRECTION('ref_axis',(1.,0.,0.));
#158=DIRECTION('center_axis',(0.,0.,1.));
#159=DIRECTION('ref_axis',(1.,-1.22464679914735E-16,0.));
#160=DIRECTION('',(0.,0.,-1.));
#161=DIRECTION('center_axis',(0.,0.,1.));
#162=DIRECTION('ref_axis',(1.,0.,0.));
#163=DIRECTION('center_axis',(0.,0.,1.));
#164=DIRECTION('ref_axis',(1.,0.,0.));
#165=DIRECTION('center_axis',(0.,0.,-1.));
#166=DIRECTION('ref_axis',(1.,-1.22464679914735E-16,0.));
#167=DIRECTION('center_axis',(1.22464679914735E-16,-1.,0.));
#168=DIRECTION('ref_axis',(-1.,-1.22464679914735E-16,0.));
#169=DIRECTION('center_axis',(0.,0.,1.));
#170=DIRECTION('ref_axis',(1.,0.,0.));
#171=DIRECTION('center_axis',(0.,0.,1.));
#172=DIRECTION('ref_axis',(-1.,0.,0.));
#173=DIRECTION('center_axis',(0.,0.,1.));
#174=DIRECTION('ref_axis',(1.,0.,0.));
#175=DIRECTION('center_axis',(0.,0.,1.));
#176=DIRECTION('ref_axis',(-1.,0.,0.));
#177=DIRECTION('center_axis',(1.22464679914735E-16,-1.,0.));
#178=DIRECTION('ref_axis',(-1.,-1.22464679914735E-16,0.));
#179=DIRECTION('center_axis',(0.,0.,-1.));
#180=DIRECTION('ref_axis',(-1.,0.,0.));
#181=DIRECTION('center_axis',(0.,0.,1.));
#182=DIRECTION('ref_axis',(1.,0.,0.));
#183=DIRECTION('',(0.,0.,1.));
#184=DIRECTION('center_axis',(0.,0.,1.));
#185=DIRECTION('ref_axis',(1.,0.,0.));
#186=CARTESIAN_POINT('',(0.,0.,0.));
#187=CARTESIAN_POINT('Origin',(0.,0.,5.));
#188=CARTESIAN_POINT('',(21.,-2.57175827820944E-15,0.));
#189=CARTESIAN_POINT('Origin',(0.,0.,0.));
#190=CARTESIAN_POINT('',(26.,-3.18408167778312E-15,5.));
#191=CARTESIAN_POINT('Origin',(21.,-2.57175827820944E-15,5.));
#192=CARTESIAN_POINT('',(-26.,3.18408167778312E-15,5.));
#193=CARTESIAN_POINT('Origin',(0.,0.,5.));
#194=CARTESIAN_POINT('Origin',(0.,0.,5.));
#195=CARTESIAN_POINT('Origin',(0.,0.,4.));
#196=CARTESIAN_POINT('',(-26.,0.,7.));
#197=CARTESIAN_POINT('Origin',(0.,0.,7.));
#198=CARTESIAN_POINT('',(-26.,-3.18408167778312E-15,4.));
#199=CARTESIAN_POINT('Origin',(0.,0.,0.));
#200=CARTESIAN_POINT('Origin',(0.,0.,7.));
#201=CARTESIAN_POINT('',(-25.,6.12323399573677E-15,8.));
#202=CARTESIAN_POINT('Origin',(0.,0.,8.));
#203=CARTESIAN_POINT('Origin',(-25.,-3.06161699786838E-15,7.));
#204=CARTESIAN_POINT('Origin',(0.,0.,8.));
#205=CARTESIAN_POINT('',(-24.,-2.93915231795365E-15,8.));
#206=CARTESIAN_POINT('Origin',(0.,0.,8.));
#207=CARTESIAN_POINT('Origin',(0.,0.,5.));
#208=CARTESIAN_POINT('',(-24.,-2.93915231795365E-15,5.));
#209=CARTESIAN_POINT('Origin',(0.,0.,5.));
#210=CARTESIAN_POINT('',(-21.,-2.57175827820944E-15,2.));
#211=CARTESIAN_POINT('Origin',(-21.,-2.57175827820944E-15,5.));
#212=CARTESIAN_POINT('Origin',(0.,0.,2.));
#213=CARTESIAN_POINT('Origin',(0.,0.,4.));
#214=CARTESIAN_POINT('',(-24.,-2.93915231795365E-15,4.));
#215=CARTESIAN_POINT('Origin',(0.,0.,2.));
#216=UNCERTAINTY_MEASURE_WITH_UNIT(LENGTH_MEASURE(0.01),#220,
'DISTANCE_ACCURACY_VALUE',
'Maximum model space distance between geometric entities at asserted c
onnectivities');
#217=UNCERTAINTY_MEASURE_WITH_UNIT(LENGTH_MEASURE(0.01),#220,
'DISTANCE_ACCURACY_VALUE',
'Maximum model space distance between geometric entities at asserted c
onnectivities');
#218=(
GEOMETRIC_REPRESENTATION_CONTEXT(3)
GLOBAL_UNCERTAINTY_ASSIGNED_CONTEXT((#216))
GLOBAL_UNIT_ASSIGNED_CONTEXT((#220,#222,#223))
REPRESENTATION_CONTEXT('','3D')
);
#219=(
GEOMETRIC_REPRESENTATION_CONTEXT(3)
GLOBAL_UNCERTAINTY_ASSIGNED_CONTEXT((#217))
GLOBAL_UNIT_ASSIGNED_CONTEXT((#220,#222,#223))
REPRESENTATION_CONTEXT('','3D')
);
#220=(
LENGTH_UNIT()
NAMED_UNIT(*)
SI_UNIT(.MILLI.,.METRE.)
);
#221=(
LENGTH_UNIT()
NAMED_UNIT(*)
SI_UNIT($,.METRE.)
);
#222=(
NAMED_UNIT(*)
PLANE_ANGLE_UNIT()
SI_UNIT($,.RADIAN.)
);
#223=(
NAMED_UNIT(*)
SI_UNIT($,.STERADIAN.)
SOLID_ANGLE_UNIT()
);
#224=SHAPE_DEFINITION_REPRESENTATION(#225,#226);
#225=PRODUCT_DEFINITION_SHAPE('',$,#228);
#226=SHAPE_REPRESENTATION('',(#124),#218);
#227=PRODUCT_DEFINITION_CONTEXT('part definition',#232,'design');
#228=PRODUCT_DEFINITION('(Unsaved)','(Unsaved)',#229,#227);
#229=PRODUCT_DEFINITION_FORMATION('',$,#234);
#230=PRODUCT_RELATED_PRODUCT_CATEGORY('(Unsaved)','(Unsaved)',(#234));
#231=APPLICATION_PROTOCOL_DEFINITION('international standard',
'automotive_design',2009,#232);
#232=APPLICATION_CONTEXT(
'Core Data for Automotive Mechanical Design Process');
#233=PRODUCT_CONTEXT('part definition',#232,'mechanical');
#234=PRODUCT('(Unsaved)','(Unsaved)',$,(#233));
#235=PRESENTATION_STYLE_ASSIGNMENT((#236));
#236=SURFACE_STYLE_USAGE(.BOTH.,#237);
#237=SURFACE_SIDE_STYLE('',(#238));
#238=SURFACE_STYLE_FILL_AREA(#239);
#239=FILL_AREA_STYLE('Steel - Satin',(#240));
#240=FILL_AREA_STYLE_COLOUR('Steel - Satin',#241);
#241=COLOUR_RGB('Steel - Satin',0.627450980392157,0.627450980392157,0.627450980392157);
ENDSEC;
END-ISO-10303-21;
